<address id="1pdvh"></address>
<noframes id="1pdvh">
<strike id="1pdvh"><i id="1pdvh"></i></strike>
<address id="1pdvh"><form id="1pdvh"></form></address>
<noframes id="1pdvh"><span id="1pdvh"></span>
      <noframes id="1pdvh"><address id="1pdvh"><nobr id="1pdvh"></nobr></address>

      <address id="1pdvh"><address id="1pdvh"></address></address>

      Sweet Child o'mine

      歌手:吉他吧 來源:文本 2007-11-03 曲譜熱度:°

      吉它曲譜 Sweet Child o'mine     歌手/樂隊:Guns N Rose
      前奏Solo:
         D                           C
      e:|--------------15----14-----|--------------15----14-----|
      B:|-----15--------------------|-----15--------------------|
      G:|:-------14-12----14----14-:|:-------14-12----14----14-:|
      D:|--12-----------------------|--14-----------------------|
      A:|---------------------------|---------------------------|
      E:|---------------------------|---------------------------|

         G                           D
      e:|--------------15----14-----|--------------15----14-----|
      B:|-----15--------------------|-----15--------------------|
      G:|:-12----14-12----14----14-:|:-------14-12----14----14-:|
      D:|---------------------------|--12-----------------------|
      A:|---------------------------|---------------------------|
      E:|---------------------------|---------------------------|
      > (D)
      > She’s got smile___ that it seems to me___
      > (C)
      > re_minds___me of child - hood mem-o-ries,___
      > (G) (D)
      > Where ev__’ry - thing__was as the bright__blue sky.__
      > (D)
      > Now and then__When I see her face_______
      > (C)
      > she takes me a-way___ to that spe-cial place,____
      > (G)
      > and if I started____ too___ long,
      > (D)
      > I’ll pro-’ly break down and cry._______
      > (A5) (B5) (C5) (D)
      > Whoa, Whoa,___ Whoa.___ sweet child o’ mine.____
      > (A5) (B5)(C5) (D)
      > Whoa, oh,__oh, oh,____sweet child o’ mine._____
      >
      > e------------------------------------------------------sl-----\
      > B---10---8--7-----10--8--7----10---8------10---8-----10-\-8---|
      > G-9-----------------------------------9------------9----------|
      > D-------------------------------------------------------------|
      > A-------------------------------------------------------------|
      > E-------------------------------------------------------------/

      > e-full--------full-10--10^--(10)---------------\
      > B-10-^-(10)8--10-^--------------full-----------|
      > G--------------------------------9-^-----------|
      > D----------------------------------------------|
      > A----------------------------------------------|
      > E----------------------------------------------/
      >
      > (A5) (B5) (C5) (D)
      > Oh, oh,___oh, oh,____sweet child___o’ mine._____
      > (A5) (B5) (C5) (D5)
      > Ooh,________________sweet love o’ mine.____________
      >
      > (D)
      > She’s got eyes______of the bluest skies,_________
      > (C)
      > as___if they thought___of rain.______
      > (G)
      > I hate___to look in-to those eyes__________
      > (D)
      > and - see an_____ounce of pain.________
      > (D)
      > Her hair remin-ds me of a warm____safe place______
      > (C)
      > where___as a chil-d I___’d hide,_____
      > (G)
      > And___pray for the thunder____and the rain_________
      > (D)
      > to quie_____tly pass_____ me by._________
      >
      > e---sl----half-------half/hold---10--------------------\
      > B-10-\-8--7-^-(7)----7-^------------(7)-----10----8--7-|
      > G------------------7-----------------------------------|
      > D------------------------------------------------------|
      > A------------------------------------------------------|
      > E------------------------------------------------------/
      >
      > sl sl
      > e----------------sl-full-10----10-\-8-------/12--------\
      > B-10---8----7-----/10-^--------------------------------|
      > G------------------------------------------------------|
      > D------------------------------------------------------|
      > A------------------------------------------------------|
      > E------------------------------------------------------/
      >
      > sl sl half vibrato
      > e--12---12-\-10---10-(10)\-8---7-^--(7)-----------------\
      > B-----------------------------------------8-------------|
      > G---------------------------------------------7-~~~~~~~-|
      > D-------------------------------------------------------|
      > A-------------------------------------------------------|
      > E-------------------------------------------------------/
      >
      > e---full----P-----full--10---10-^--(10)-full/hold---17----(17)\
      > B-10-^--(10)>8---10-^-------------------17-^---(17)-------(17)|
      > G-------------------------------------------------------------|
      > D-------------------------------------------------------------|
      > A-------------------------------------------------------------|
      > E-------------------------------------------------------------/
      >
      > * Guitar Solo

      |-17^--hold----15--14--h15p14-----------15--14--h15p14-----------12--14-|
      |-----------------------------17-----------------------17-16------------|
      |-----------------------------------------------------------------------|
      |-----------------------------------------------------------------------|
      |-----------------------------------------------------------------------|
      |-----------------------------------------------------------------------|

      |-----------------------------------------------------------------------|
      |--15^--12----------------------------------------13-12-------h13p12\10-|
      |----------14^--12--11h12----------------11-12-14-----------------------|
      |-----------------------------14-----14---------------------------------|
      |-----------------------------------------------------------------------|
      |-----------------------------------------------------------------------|

      |---------------------------------------------15^-----------------------|
      |--13^-----13-----12--12-(12)-------12^----------------7^^--------------|
      |-----------------------------------------14-----------------9--9-------|
      |-----------------------------------------------------------------------|
      |-----------------------------------------------------------------------|
      |-----------------------------------------------------------------------|

      |-----------------------------------------------------------------------|
      |-----7^----------------------------------------------------------------|
      |----------9--9-----8^----8/11---------11^---9-----------------9--------|
      |-----------------------------------------------9^---7---9--------------|
      |-----------------------------------------------------------------------|
      |-----------------------------------------------------------------------|

      |-----------------------------------------------------------------------|
      |--------7h8--p7---------------------------------------------7^---7-10^-|
      |----------------------9------8^-----8------/11-----9^--8-9-----9-------|
      |-----------------------------------------------------------------------|
      |-----------------------------------------------------------------------|
      |-----------------------------------------------------------------------|

      |-7-8p7-11p7-8-11-12/14-11-12--14/15-12-14-15p14-12----14p11-12h14p12---|
      |---------------------------------------------------15----------------15|
      |-----------------------------------------------------------------------|
      |-----------------------------------------------------------------------|
      |-----------------------------------------------------------------------|
      |-----------------------------------------------------------------------|
      w/wah wah
      |-17--------------------------------------------------------------------|
      |----15^---15^---15^---15^---15^-p12-----15^----15^--------15^-p12------|
      |------------------------------------14----------------------------14---|
      |-----------------------------------------------------------------------|
      |-----------------------------------------------------------------------|
      |-----------------------------------------------------------------------|

      |----------------------------------15-----------------------------------|
      |--17^---17^--------17^----17^----------17^---------17^-p15--15h17------|
      |-------------------17^-------------------------------------------------|
      |-----------------------------------------------------------------------|
      |-----------------------------------------------------------------------|
      |-----------------------------------------------------------------------|

      |-----------12----------------------------------------------------------|
      |-15^------------15---12------------------------------------------------|
      |---------------------------14^-p12-14---12-14----12--14^----12--14--12-|
      |-----------------------------------------------------------------------|
      |-----------------------------------------------------------------------|
      |-----------------------------------------------------------------------|

      |----15-------------15-----15-----15------------------------------------|
      |----15-------15----15-----15-------15----------------------------------|
      |-14^--14--12-14^-----14^----14^------14^-p12----14p12--x-x----12^------|
      |---------------------------------------------14--------x-x-------------|
      |-----------------------------------------------------------------------|
      |-----------------------------------------------------------------------|

      |-----------------------------------------------------------------------|
      |-----------------------------------------------------------------------|
      |-----------------12h14p12----12^--------------------12h14p12-----12-12-|
      |-14p12-14----x-x----------14--------14p12-14----x-x----------14--------|
      |-----------------------------------------------------------------------|
      |-----------------------------------------------------------------------|

      |----------------------------------------------12-12-------15-15p12--15-|
      |-------------------12-12-------15-15p12-------------15p12--------------|
      |-------14-14p12-14-------14p12-----------------------------------------|
      |-14p12-----------------------------------------------------------------|
      |-----------------------------------------------------------------------|
      |-----------------------------------------------------------------------|

      |-14----12h15p12---------12-----------12-----------12-----------12------|
      |----15----------15--15^----15p12--------15p12-15^----15p12--------15p12|
      |----------------------------------14^-----------------------14^--------|
      |-----------------------------------------------------------------------|
      |-----------------------------------------------------------------------|
      |-----------------------------------------------------------------------|

      |------12-----------12-----------12--------------12-------15^-----------|
      |--15^----15p12--------15p12-15^----15p12-----12----15p12---------------|
      |---------------14^-----------------------14^---------------------------|
      |-----------------------------------------------------------------------|
      |-----------------------------------------------------------------------|
      |-----------------------------------------------------------------------|

      |--------------------15------12h15p12----12------12---------------------|
      |-------------------------------------15-----15^-----15p12--------------|
      |-----------------------------------------------------------14^-p12-14^-|
      |-----------------------------------------------------------------------|
      |-----------------------------------------------------------------------|
      |-----------------------------------------------------------------------|

      |---------------------------------------------------|
      |-------15------------------------------------------|
      |----------14^-p12-14^----14p12--------------12-----|
      |----------------------14-------14------------------|
      |---------------------------------------------------|
      |---------------------------------------------------|


      >
      >
      > Where do we go?_____ Where do we go_____now?
      > Where do we go?_____ Where do we go?______
      > Where do we go____now?_____ Where do we go?______
      > Where do we go?_____ CHILD !
      > Where do we go____now? Where do we go______now,
      > Now?_________________Where do we go?__________

      1.本站遵循行業規范,任何轉載的曲譜和教程都會明確標注作者和來源;2.本站的原創曲譜,請轉載時務必注明文章作者和來源,不尊重原創的行為我們將追究責任;3.作者投稿可能會經我們編輯修改或補充。

      自動滾屏
      全屏閱譜
      關閉
      自動滾屏
      日本一级婬片A级中文字幕